ISO-10303-21;
HEADER;
FILE_DESCRIPTION (( 'STEP AP203' ),
    '1' );
FILE_NAME ('BK7-LPBSC-25.4-980.STEP',
    '2020-12-22T03:15:29',
    ( '' ),
    ( '' ),
    'SwSTEP 2.0',
    'SolidWorks 2020',
    '' );
FILE_SCHEMA (( 'CONFIG_CONTROL_DESIGN' ));
ENDSEC;

DATA;
#1 = EDGE_LOOP ( 'NONE', ( #116, #176, #75, #77 ) ) ;
#2 = EDGE_CURVE ( 'NONE', #203, #101, #98, .T. ) ;
#3 = APPROVAL_PERSON_ORGANIZATION ( #84, #296, #88 ) ;
#4 = VERTEX_POINT ( 'NONE', #219 ) ;
#5 = CC_DESIGN_PERSON_AND_ORGANIZATION_ASSIGNMENT ( #153, #237, ( #95 ) ) ;
#6 = ORIENTED_EDGE ( 'NONE', *, *, #83, .T. ) ;
#7 = EDGE_CURVE ( 'NONE', #52, #178, #71, .T. ) ;
#8 = DATE_AND_TIME ( #56, #67 ) ;
#9 = DIRECTION ( 'NONE',  ( 0.000000000000000000, 0.000000000000000000, 1.000000000000000000 ) ) ;
#10 = PERSON_AND_ORGANIZATION ( #179, #14 ) ;
#11 = LINE ( 'NONE', #109, #266 ) ;
#12 = EDGE_CURVE ( 'NONE', #205, #297, #118, .T. ) ;
#13 = DATE_AND_TIME ( #16, #76 ) ;
#14 = ORGANIZATION ( 'UNSPECIFIED', 'UNSPECIFIED', '' ) ;
#15 = FACE_OUTER_BOUND ( 'NONE', #170, .T. ) ;
#16 = CALENDAR_DATE ( 2020, 22, 12 ) ;
#17 = CARTESIAN_POINT ( 'NONE',  ( 12.69999999999999929, -12.69999999999999929, 12.69999999999999929 ) ) ;
#18 = DIRECTION ( 'NONE',  ( 0.000000000000000000, 0.000000000000000000, -1.000000000000000000 ) ) ;
#19 = CARTESIAN_POINT ( 'NONE',  ( 12.69999999999999574, 12.69999999999999574, 12.69999999999999929 ) ) ;
#20 = CARTESIAN_POINT ( 'NONE',  ( 12.69999999999999929, -12.69999999999999929, -12.69999999999999929 ) ) ;
#21 = MANIFOLD_SOLID_BREP ( '¾µÏ', #273 ) ;
#22 = LINE ( 'NONE', #293, #142 ) ;
#23 = DIRECTION ( 'NONE',  ( -0.7071067811865474617, -0.7071067811865474617, 0.000000000000000000 ) ) ;
#24 = VERTEX_POINT ( 'NONE', #202 ) ;
#25 = EDGE_CURVE ( 'NONE', #253, #24, #44, .T. ) ;
#26 = ORIENTED_EDGE ( 'NONE', *, *, #128, .T. ) ;
#27 = VECTOR ( 'NONE', #258, 1000.000000000000114 ) ;
#28 = CC_DESIGN_APPROVAL ( #281, ( #225 ) ) ;
#29 = ORIENTED_EDGE ( 'NONE', *, *, #300, .F. ) ;
#30 =( NAMED_UNIT ( * ) SI_UNIT ( $, .STERADIAN. ) SOLID_ANGLE_UNIT ( ) );
#31 = VECTOR ( 'NONE', #243, 999.9999999999998863 ) ;
#32 = PERSON_AND_ORGANIZATION ( #179, #14 ) ;
#33 = LOCAL_TIME ( 11, 15, 29.00000000000000000, #314 ) ;
#34 = CARTESIAN_POINT ( 'NONE',  ( 12.69999999999999929, 12.69999999999999929, -12.69999999999999929 ) ) ;
#35 = PLANE ( 'NONE',  #208 ) ;
#36 = PERSON_AND_ORGANIZATION_ROLE ( 'creator' ) ;
#37 = DIRECTION ( 'NONE',  ( -2.220446049250312588E-16, 1.000000000000000000, 0.000000000000000000 ) ) ;
#38 = PERSON_AND_ORGANIZATION ( #179, #14 ) ;
#39 = PLANE ( 'NONE',  #110 ) ;
#40 = APPROVAL_DATE_TIME ( #108, #312 ) ;
#41 = CLOSED_SHELL ( 'NONE', ( #304, #247, #204, #50, #234 ) ) ;
#42 = CARTESIAN_POINT ( 'NONE',  ( -12.69999999999999751, -12.69999999999999929, 12.69999999999999929 ) ) ;
#43 = DIRECTION ( 'NONE',  ( 1.000000000000000000, -2.220446049250312588E-16, 0.000000000000000000 ) ) ;
#44 = LINE ( 'NONE', #199, #187 ) ;
#45 = DIRECTION ( 'NONE',  ( 0.000000000000000000, 0.000000000000000000, 1.000000000000000000 ) ) ;
#46 = CC_DESIGN_APPROVAL ( #296, ( #54 ) ) ;
#47 = LINE ( 'NONE', #308, #180 ) ;
#48 = CC_DESIGN_DATE_AND_TIME_ASSIGNMENT ( #8, #111, ( #54 ) ) ;
#49 = VECTOR ( 'NONE', #283, 999.9999999999998863 ) ;
#50 = ADVANCED_FACE ( 'NONE', ( #168 ), #222, .T. ) ;
#51 = ORIENTED_EDGE ( 'NONE', *, *, #70, .F. ) ;
#52 = VERTEX_POINT ( 'NONE', #292 ) ;
#53 = VECTOR ( 'NONE', #23, 1000.000000000000114 ) ;
#54 = PRODUCT_DEFINITION ( 'UNKNOWN', '', #95, #249 ) ;
#55 = FACE_OUTER_BOUND ( 'NONE', #1, .T. ) ;
#56 = CALENDAR_DATE ( 2020, 22, 12 ) ;
#57 = LINE ( 'NONE', #162, #220 ) ;
#58 = ADVANCED_FACE ( 'NONE', ( #166 ), #246, .T. ) ;
#59 = PERSON_AND_ORGANIZATION ( #179, #14 ) ;
#60 = DIRECTION ( 'NONE',  ( 0.000000000000000000, 0.000000000000000000, -1.000000000000000000 ) ) ;
#61 = CARTESIAN_POINT ( 'NONE',  ( 12.69999999999999929, 12.69999999999999929, 12.69999999999999929 ) ) ;
#62 = APPROVAL_STATUS ( 'not_yet_approved' ) ;
#63 = LINE ( 'NONE', #154, #27 ) ;
#64 = LINE ( 'NONE', #216, #224 ) ;
#65 = DIRECTION ( 'NONE',  ( 0.000000000000000000, 0.000000000000000000, 1.000000000000000000 ) ) ;
#66 = DIRECTION ( 'NONE',  ( -1.000000000000000000, 0.000000000000000000, 0.000000000000000000 ) ) ;
#67 = LOCAL_TIME ( 11, 15, 29.00000000000000000, #240 ) ;
#68 = DIRECTION ( 'NONE',  ( -0.000000000000000000, -0.000000000000000000, -1.000000000000000000 ) ) ;
#69 =( NAMED_UNIT ( * ) PLANE_ANGLE_UNIT ( ) SI_UNIT ( $, .RADIAN. ) );
#70 = EDGE_CURVE ( 'NONE', #4, #165, #22, .T. ) ;
#71 = LINE ( 'NONE', #144, #53 ) ;
#72 = VECTOR ( 'NONE', #198, 1000.000000000000000 ) ;
#73 = ORIENTED_EDGE ( 'NONE', *, *, #317, .T. ) ;
#74 = ORIENTED_EDGE ( 'NONE', *, *, #232, .F. ) ;
#75 = ORIENTED_EDGE ( 'NONE', *, *, #70, .T. ) ;
#76 = LOCAL_TIME ( 11, 15, 29.00000000000000000, #261 ) ;
#77 = ORIENTED_EDGE ( 'NONE', *, *, #232, .T. ) ;
#78 = ORIENTED_EDGE ( 'NONE', *, *, #128, .F. ) ;
#79 = ORIENTED_EDGE ( 'NONE', *, *, #2, .F. ) ;
#80 = VECTOR ( 'NONE', #107, 1000.000000000000000 ) ;
#81 = APPROVAL_DATE_TIME ( #13, #296 ) ;
#82 = DIRECTION ( 'NONE',  ( 0.000000000000000000, 0.000000000000000000, 1.000000000000000000 ) ) ;
#83 = EDGE_CURVE ( 'NONE', #178, #278, #47, .T. ) ;
#84 = PERSON_AND_ORGANIZATION ( #179, #14 ) ;
#85 = DIRECTION ( 'NONE',  ( 0.000000000000000000, 0.000000000000000000, 1.000000000000000000 ) ) ;
#86 = CARTESIAN_POINT ( 'NONE',  ( 12.69999999999999929, 12.69999999999999929, 12.69999999999999929 ) ) ;
#87 = AXIS2_PLACEMENT_3D ( 'NONE', #241, #66, #82 ) ;
#88 = APPROVAL_ROLE ( '' ) ;
#89 = CARTESIAN_POINT ( 'NONE',  ( 12.69999999999999574, 12.69999999999999574, 12.69999999999999929 ) ) ;
#90 = CARTESIAN_POINT ( 'NONE',  ( -12.70000000000000284, 12.70000000000000284, 12.69999999999999929 ) ) ;
#91 = CC_DESIGN_PERSON_AND_ORGANIZATION_ASSIGNMENT ( #290, #184, ( #122 ) ) ;
#92 = CALENDAR_DATE ( 2020, 22, 12 ) ;
#93 = SHAPE_DEFINITION_REPRESENTATION ( #124, #295 ) ;
#94 = FACE_OUTER_BOUND ( 'NONE', #223, .T. ) ;
#95 = PRODUCT_DEFINITION_FORMATION_WITH_SPECIFIED_SOURCE ( 'ANY', '', #122, .NOT_KNOWN. ) ;
#96 = CARTESIAN_POINT ( 'NONE',  ( -12.70000000000000284, 12.70000000000000284, 12.69999999999999929 ) ) ;
#97 = ORIENTED_EDGE ( 'NONE', *, *, #2, .T. ) ;
#98 = LINE ( 'NONE', #294, #145 ) ;
#99 = AXIS2_PLACEMENT_3D ( 'NONE', #215, #65, #315 ) ;
#100 = EDGE_LOOP ( 'NONE', ( #291, #255, #73 ) ) ;
#101 = VERTEX_POINT ( 'NONE', #311 ) ;
#102 = ORIENTED_EDGE ( 'NONE', *, *, #12, .T. ) ;
#103 = CC_DESIGN_DATE_AND_TIME_ASSIGNMENT ( #307, #310, ( #225 ) ) ;
#104 = ADVANCED_FACE ( 'NONE', ( #211 ), #289, .F. ) ;
#105 = DIRECTION ( 'NONE',  ( 1.000000000000000000, 0.000000000000000000, 0.000000000000000000 ) ) ;
#106 = PERSON_AND_ORGANIZATION ( #179, #14 ) ;
#107 = DIRECTION ( 'NONE',  ( -0.000000000000000000, 1.000000000000000000, -0.000000000000000000 ) ) ;
#108 = DATE_AND_TIME ( #305, #131 ) ;
#109 = CARTESIAN_POINT ( 'NONE',  ( -12.69999999999999751, -12.69999999999999929, 12.69999999999999929 ) ) ;
#110 = AXIS2_PLACEMENT_3D ( 'NONE', #265, #313, #135 ) ;
#111 = DATE_TIME_ROLE ( 'creation_date' ) ;
#112 = ADVANCED_FACE ( 'NONE', ( #157 ), #262, .F. ) ;
#113 = LINE ( 'NONE', #139, #31 ) ;
#114 = APPROVAL_ROLE ( '' ) ;
#115 = LINE ( 'NONE', #316, #49 ) ;
#116 = ORIENTED_EDGE ( 'NONE', *, *, #25, .F. ) ;
#117 = CARTESIAN_POINT ( 'NONE',  ( 12.69999999999999574, 12.69999999999999574, 12.69999999999999929 ) ) ;
#118 = LINE ( 'NONE', #320, #228 ) ;
#119 = EDGE_CURVE ( 'NONE', #126, #278, #63, .T. ) ;
#120 = CARTESIAN_POINT ( 'NONE',  ( 0.000000000000000000, 0.000000000000000000, 12.69999999999999929 ) ) ;
#121 = EDGE_LOOP ( 'NONE', ( #242, #78, #277 ) ) ;
#122 = PRODUCT ( 'BK7-LPBSC-25.4-980', 'BK7-LPBSC-25.4-980', '', ( #233 ) ) ;
#123 = ORIENTED_EDGE ( 'NONE', *, *, #188, .F. ) ;
#124 = PRODUCT_DEFINITION_SHAPE ( 'NONE', 'NONE',  #54 ) ;
#125 = VECTOR ( 'NONE', #185, 1000.000000000000000 ) ;
#126 = VERTEX_POINT ( 'NONE', #34 ) ;
#127 = ORIENTED_EDGE ( 'NONE', *, *, #138, .T. ) ;
#128 = EDGE_CURVE ( 'NONE', #297, #126, #134, .T. ) ;
#129 = PLANE ( 'NONE',  #206 ) ;
#130 = CC_DESIGN_SECURITY_CLASSIFICATION ( #225, ( #95 ) ) ;
#131 = LOCAL_TIME ( 11, 15, 29.00000000000000000, #210 ) ;
#132 = LINE ( 'NONE', #285, #298 ) ;
#133 = LINE ( 'NONE', #96, #72 ) ;
#134 = LINE ( 'NONE', #159, #125 ) ;
#135 = DIRECTION ( 'NONE',  ( 0.7071067811865475727, 0.7071067811865475727, 0.000000000000000000 ) ) ;
#136 = APPROVAL_DATE_TIME ( #192, #281 ) ;
#137 = CARTESIAN_POINT ( 'NONE',  ( -12.69999999999999574, -12.69999999999999396, -12.69999999999999929 ) ) ;
#138 = EDGE_CURVE ( 'NONE', #4, #253, #132, .T. ) ;
#139 = CARTESIAN_POINT ( 'NONE',  ( 12.69999999999999574, 12.69999999999999574, 12.69999999999999929 ) ) ;
#140 =( LENGTH_UNIT ( ) NAMED_UNIT ( * ) SI_UNIT ( .MILLI., .METRE. ) );
#141 = DIRECTION ( 'NONE',  ( -2.220446049250312588E-16, 1.000000000000000000, 0.000000000000000000 ) ) ;
#142 = VECTOR ( 'NONE', #275, 1000.000000000000000 ) ;
#143 = ORIENTED_EDGE ( 'NONE', *, *, #300, .T. ) ;
#144 = CARTESIAN_POINT ( 'NONE',  ( 12.69999999999999929, 12.69999999999999929, 12.69999999999999929 ) ) ;
#145 = VECTOR ( 'NONE', #18, 1000.000000000000000 ) ;
#146 = ORIENTED_EDGE ( 'NONE', *, *, #201, .F. ) ;
#147 = EDGE_LOOP ( 'NONE', ( #299, #227, #200, #6 ) ) ;
#148 = EDGE_CURVE ( 'NONE', #178, #205, #11, .T. ) ;
#149 = ORIENTED_EDGE ( 'NONE', *, *, #25, .T. ) ;
#150 = AXIS2_PLACEMENT_3D ( 'NONE', #183, #43, #212 ) ;
#151 = ORIENTED_EDGE ( 'NONE', *, *, #119, .T. ) ;
#152 = DIRECTION ( 'NONE',  ( 0.7071067811865475727, -0.7071067811865475727, 0.000000000000000000 ) ) ;
#153 = PERSON_AND_ORGANIZATION ( #179, #14 ) ;
#154 = CARTESIAN_POINT ( 'NONE',  ( 12.69999999999999929, 12.69999999999999929, -12.69999999999999929 ) ) ;
#155 = PLANE ( 'NONE',  #87 ) ;
#156 = APPLICATION_PROTOCOL_DEFINITION ( 'international standard', 'config_control_design', 1994, #276 ) ;
#157 = FACE_OUTER_BOUND ( 'NONE', #231, .T. ) ;
#158 = EDGE_CURVE ( 'NONE', #24, #101, #64, .T. ) ;
#159 = CARTESIAN_POINT ( 'NONE',  ( 12.69999999999999929, 12.69999999999999929, -12.69999999999999929 ) ) ;
#160 = DIRECTION ( 'NONE',  ( 1.000000000000000000, -2.220446049250312588E-16, 0.000000000000000000 ) ) ;
#161 = APPLICATION_PROTOCOL_DEFINITION ( 'international standard', 'config_control_design', 1994, #302 ) ;
#162 = CARTESIAN_POINT ( 'NONE',  ( -12.69999999999999751, -12.69999999999999929, -12.69999999999999929 ) ) ;
#163 = LINE ( 'NONE', #19, #167 ) ;
#164 = FACE_OUTER_BOUND ( 'NONE', #252, .T. ) ;
#165 = VERTEX_POINT ( 'NONE', #90 ) ;
#166 = FACE_OUTER_BOUND ( 'NONE', #279, .T. ) ;
#167 = VECTOR ( 'NONE', #318, 1000.000000000000000 ) ;
#168 = FACE_OUTER_BOUND ( 'NONE', #100, .T. ) ;
#169 = CC_DESIGN_APPROVAL ( #312, ( #95 ) ) ;
#170 = EDGE_LOOP ( 'NONE', ( #29, #79, #207, #127 ) ) ;
#171 = ORIENTED_EDGE ( 'NONE', *, *, #158, .T. ) ;
#172 = APPROVAL_PERSON_ORGANIZATION ( #10, #312, #114 ) ;
#173 = LOCAL_TIME ( 11, 15, 29.00000000000000000, #217 ) ;
#174 = ORIENTED_EDGE ( 'NONE', *, *, #7, .F. ) ;
#175 = ADVANCED_FACE ( 'NONE', ( #15 ), #39, .F. ) ;
#176 = ORIENTED_EDGE ( 'NONE', *, *, #138, .F. ) ;
#177 = CC_DESIGN_PERSON_AND_ORGANIZATION_ASSIGNMENT ( #106, #36, ( #95 ) ) ;
#178 = VERTEX_POINT ( 'NONE', #239 ) ;
#179 = PERSON ( 'UNSPECIFIED', 'UNSPECIFIED', 'UNSPECIFIED', ('UNSPECIFIED'), ('UNSPECIFIED'), ('UNSPECIFIED') ) ;
#180 = VECTOR ( 'NONE', #235, 1000.000000000000000 ) ;
#181 = ORIENTED_EDGE ( 'NONE', *, *, #158, .F. ) ;
#182 = FACE_OUTER_BOUND ( 'NONE', #147, .T. ) ;
#183 = CARTESIAN_POINT ( 'NONE',  ( -12.69999999999999574, -12.69999999999999396, 12.69999999999999929 ) ) ;
#184 = PERSON_AND_ORGANIZATION_ROLE ( 'design_owner' ) ;
#185 = DIRECTION ( 'NONE',  ( -0.000000000000000000, 1.000000000000000000, -0.000000000000000000 ) ) ;
#186 = FACE_OUTER_BOUND ( 'NONE', #121, .T. ) ;
#187 = VECTOR ( 'NONE', #270, 1000.000000000000000 ) ;
#188 = EDGE_CURVE ( 'NONE', #203, #4, #113, .T. ) ;
#189 = APPROVAL_STATUS ( 'not_yet_approved' ) ;
#190 = DIRECTION ( 'NONE',  ( 2.220446049250312588E-16, -1.000000000000000000, 0.000000000000000000 ) ) ;
#191 = DIRECTION ( 'NONE',  ( 1.000000000000000000, 0.000000000000000000, 0.000000000000000000 ) ) ;
#192 = DATE_AND_TIME ( #92, #173 ) ;
#193 = EDGE_CURVE ( 'NONE', #165, #203, #163, .T. ) ;
#194 = AXIS2_PLACEMENT_3D ( 'NONE', #89, #190, #9 ) ;
#195 = LINE ( 'NONE', #86, #80 ) ;
#196 = ORIENTED_EDGE ( 'NONE', *, *, #317, .F. ) ;
#197 = LINE ( 'NONE', #61, #259 ) ;
#198 = DIRECTION ( 'NONE',  ( 0.000000000000000000, 0.000000000000000000, -1.000000000000000000 ) ) ;
#199 = CARTESIAN_POINT ( 'NONE',  ( -12.69999999999999574, -12.69999999999999396, -12.69999999999999929 ) ) ;
#200 = ORIENTED_EDGE ( 'NONE', *, *, #148, .F. ) ;
#201 = EDGE_CURVE ( 'NONE', #52, #126, #197, .T. ) ;
#202 = CARTESIAN_POINT ( 'NONE',  ( -12.70000000000000284, 12.70000000000000284, -12.69999999999999929 ) ) ;
#203 = VERTEX_POINT ( 'NONE', #117 ) ;
#204 = ADVANCED_FACE ( 'NONE', ( #164 ), #155, .F. ) ;
#205 = VERTEX_POINT ( 'NONE', #17 ) ;
#206 = AXIS2_PLACEMENT_3D ( 'NONE', #282, #152, #236 ) ;
#207 = ORIENTED_EDGE ( 'NONE', *, *, #188, .T. ) ;
#208 = AXIS2_PLACEMENT_3D ( 'NONE', #42, #221, #306 ) ;
#209 = DIRECTION ( 'NONE',  ( -0.000000000000000000, 0.000000000000000000, 1.000000000000000000 ) ) ;
#210 = COORDINATED_UNIVERSAL_TIME_OFFSET ( 8, 0, .AHEAD. ) ;
#211 = FACE_OUTER_BOUND ( 'NONE', #319, .T. ) ;
#212 = DIRECTION ( 'NONE',  ( 0.000000000000000000, 0.000000000000000000, 1.000000000000000000 ) ) ;
#213 = PERSON_AND_ORGANIZATION_ROLE ( 'classification_officer' ) ;
#214 = CARTESIAN_POINT ( 'NONE',  ( 0.000000000000000000, 0.000000000000000000, -12.69999999999999929 ) ) ;
#215 = CARTESIAN_POINT ( 'NONE',  ( 0.000000000000000000, 0.000000000000000000, 0.000000000000000000 ) ) ;
#216 = CARTESIAN_POINT ( 'NONE',  ( 12.69999999999999574, 12.69999999999999574, -12.69999999999999929 ) ) ;
#217 = COORDINATED_UNIVERSAL_TIME_OFFSET ( 8, 0, .AHEAD. ) ;
#218 = CARTESIAN_POINT ( 'NONE',  ( -12.69999999999999751, -12.69999999999999929, -12.69999999999999929 ) ) ;
#219 = CARTESIAN_POINT ( 'NONE',  ( -12.69999999999999574, -12.69999999999999396, 12.69999999999999929 ) ) ;
#220 = VECTOR ( 'NONE', #105, 1000.000000000000000 ) ;
#221 = DIRECTION ( 'NONE',  ( 0.000000000000000000, 1.000000000000000000, 0.000000000000000000 ) ) ;
#222 = PLANE ( 'NONE',  #321 ) ;
#223 = EDGE_LOOP ( 'NONE', ( #151, #303, #174, #229 ) ) ;
#224 = VECTOR ( 'NONE', #160, 1000.000000000000000 ) ;
#225 = SECURITY_CLASSIFICATION ( '', '', #257 ) ;
#226 = EDGE_CURVE ( 'NONE', #278, #297, #57, .T. ) ;
#227 = ORIENTED_EDGE ( 'NONE', *, *, #12, .F. ) ;
#228 = VECTOR ( 'NONE', #248, 1000.000000000000000 ) ;
#229 = ORIENTED_EDGE ( 'NONE', *, *, #201, .T. ) ;
#230 = PRODUCT_RELATED_PRODUCT_CATEGORY ( 'detail', '', ( #122 ) ) ;
#231 = EDGE_LOOP ( 'NONE', ( #143, #149, #171 ) ) ;
#232 = EDGE_CURVE ( 'NONE', #165, #24, #133, .T. ) ;
#233 = MECHANICAL_CONTEXT ( 'NONE', #276, 'mechanical' ) ;
#234 = ADVANCED_FACE ( 'NONE', ( #186 ), #287, .F. ) ;
#235 = DIRECTION ( 'NONE',  ( -0.000000000000000000, -0.000000000000000000, -1.000000000000000000 ) ) ;
#236 = DIRECTION ( 'NONE',  ( 0.7071067811865474617, 0.7071067811865474617, 0.000000000000000000 ) ) ;
#237 = PERSON_AND_ORGANIZATION_ROLE ( 'design_supplier' ) ;
#238 = APPROVAL_STATUS ( 'not_yet_approved' ) ;
#239 = CARTESIAN_POINT ( 'NONE',  ( -12.69999999999999751, -12.69999999999999929, 12.69999999999999929 ) ) ;
#240 = COORDINATED_UNIVERSAL_TIME_OFFSET ( 8, 0, .AHEAD. ) ;
#241 = CARTESIAN_POINT ( 'NONE',  ( 12.69999999999999929, 12.69999999999999929, 12.69999999999999929 ) ) ;
#242 = ORIENTED_EDGE ( 'NONE', *, *, #119, .F. ) ;
#243 = DIRECTION ( 'NONE',  ( -0.7071067811865475727, -0.7071067811865475727, 0.000000000000000000 ) ) ;
#244 = DIRECTION ( 'NONE',  ( 1.000000000000000000, 0.000000000000000000, 0.000000000000000000 ) ) ;
#245 = MANIFOLD_SOLID_BREP ( 'Í¹Ì¨-À', #41 ) ;
#246 = PLANE ( 'NONE',  #251 ) ;
#247 = ADVANCED_FACE ( 'NONE', ( #182 ), #35, .F. ) ;
#248 = DIRECTION ( 'NONE',  ( -0.000000000000000000, -0.000000000000000000, -1.000000000000000000 ) ) ;
#249 = DESIGN_CONTEXT ( 'detailed design', #302, 'design' ) ;
#250 = APPROVAL_PERSON_ORGANIZATION ( #59, #281, #264 ) ;
#251 = AXIS2_PLACEMENT_3D ( 'NONE', #272, #45, #141 ) ;
#252 = EDGE_LOOP ( 'NONE', ( #26, #146, #196, #102 ) ) ;
#253 = VERTEX_POINT ( 'NONE', #137 ) ;
#254 = AXIS2_PLACEMENT_3D ( 'NONE', #269, #209, #267 ) ;
#255 = ORIENTED_EDGE ( 'NONE', *, *, #148, .T. ) ;
#256 = ADVANCED_FACE ( 'NONE', ( #55 ), #260, .F. ) ;
#257 = SECURITY_CLASSIFICATION_LEVEL ( 'unclassified' ) ;
#258 = DIRECTION ( 'NONE',  ( -0.7071067811865474617, -0.7071067811865474617, 0.000000000000000000 ) ) ;
#259 = VECTOR ( 'NONE', #68, 1000.000000000000000 ) ;
#260 = PLANE ( 'NONE',  #150 ) ;
#261 = COORDINATED_UNIVERSAL_TIME_OFFSET ( 8, 0, .AHEAD. ) ;
#262 = PLANE ( 'NONE',  #274 ) ;
#263 = UNCERTAINTY_MEASURE_WITH_UNIT (LENGTH_MEASURE( 1.000000000000000082E-05 ), #140, 'distance_accuracy_value', 'NONE');
#264 = APPROVAL_ROLE ( '' ) ;
#265 = CARTESIAN_POINT ( 'NONE',  ( 12.69999999999999574, 12.69999999999999574, 12.69999999999999929 ) ) ;
#266 = VECTOR ( 'NONE', #191, 1000.000000000000000 ) ;
#267 = DIRECTION ( 'NONE',  ( 1.000000000000000000, 0.000000000000000000, 0.000000000000000000 ) ) ;
#268 = DIRECTION ( 'NONE',  ( -0.000000000000000000, 0.000000000000000000, 1.000000000000000000 ) ) ;
#269 = CARTESIAN_POINT ( 'NONE',  ( 0.000000000000000000, 0.000000000000000000, -12.69999999999999929 ) ) ;
#270 = DIRECTION ( 'NONE',  ( -2.220446049250312588E-16, 1.000000000000000000, 0.000000000000000000 ) ) ;
#271 = CC_DESIGN_PERSON_AND_ORGANIZATION_ASSIGNMENT ( #32, #288, ( #54 ) ) ;
#272 = CARTESIAN_POINT ( 'NONE',  ( 0.000000000000000000, 0.000000000000000000, 12.69999999999999929 ) ) ;
#273 = CLOSED_SHELL ( 'NONE', ( #175, #256, #104, #58, #112 ) ) ;
#274 = AXIS2_PLACEMENT_3D ( 'NONE', #214, #85, #37 ) ;
#275 = DIRECTION ( 'NONE',  ( -2.220446049250312588E-16, 1.000000000000000000, 0.000000000000000000 ) ) ;
#276 = APPLICATION_CONTEXT ( 'configuration controlled 3d designs of mechanical parts and assemblies' ) ;
#277 = ORIENTED_EDGE ( 'NONE', *, *, #226, .F. ) ;
#278 = VERTEX_POINT ( 'NONE', #218 ) ;
#279 = EDGE_LOOP ( 'NONE', ( #123, #301, #51 ) ) ;
#280 = ORIENTED_EDGE ( 'NONE', *, *, #193, .T. ) ;
#281 = APPROVAL ( #62, 'UNSPECIFIED' ) ;
#282 = CARTESIAN_POINT ( 'NONE',  ( 12.69999999999999929, 12.69999999999999929, 12.69999999999999929 ) ) ;
#283 = DIRECTION ( 'NONE',  ( -0.7071067811865475727, -0.7071067811865475727, 0.000000000000000000 ) ) ;
#284 = CALENDAR_DATE ( 2020, 22, 12 ) ;
#285 = CARTESIAN_POINT ( 'NONE',  ( -12.69999999999999574, -12.69999999999999396, 12.69999999999999929 ) ) ;
#286 =( GEOMETRIC_REPRESENTATION_CONTEXT ( 3 ) GLOBAL_UNCERTAINTY_ASSIGNED_CONTEXT ( ( #263 ) ) GLOBAL_UNIT_ASSIGNED_CONTEXT ( ( #140, #69, #30 ) ) REPRESENTATION_CONTEXT ( 'NONE', 'WORKASPACE' ) );
#287 = PLANE ( 'NONE',  #254 ) ;
#288 = PERSON_AND_ORGANIZATION_ROLE ( 'creator' ) ;
#289 = PLANE ( 'NONE',  #194 ) ;
#290 = PERSON_AND_ORGANIZATION ( #179, #14 ) ;
#291 = ORIENTED_EDGE ( 'NONE', *, *, #7, .T. ) ;
#292 = CARTESIAN_POINT ( 'NONE',  ( 12.69999999999999929, 12.69999999999999929, 12.69999999999999929 ) ) ;
#293 = CARTESIAN_POINT ( 'NONE',  ( -12.69999999999999574, -12.69999999999999396, 12.69999999999999929 ) ) ;
#294 = CARTESIAN_POINT ( 'NONE',  ( 12.69999999999999574, 12.69999999999999574, 12.69999999999999929 ) ) ;
#295 = ADVANCED_BREP_SHAPE_REPRESENTATION ( 'BK7-LPBSC-25.4-980', ( #245, #21, #99 ), #286 ) ;
#296 = APPROVAL ( #238, 'UNSPECIFIED' ) ;
#297 = VERTEX_POINT ( 'NONE', #20 ) ;
#298 = VECTOR ( 'NONE', #60, 1000.000000000000000 ) ;
#299 = ORIENTED_EDGE ( 'NONE', *, *, #226, .T. ) ;
#300 = EDGE_CURVE ( 'NONE', #101, #253, #115, .T. ) ;
#301 = ORIENTED_EDGE ( 'NONE', *, *, #193, .F. ) ;
#302 = APPLICATION_CONTEXT ( 'configuration controlled 3d designs of mechanical parts and assemblies' ) ;
#303 = ORIENTED_EDGE ( 'NONE', *, *, #83, .F. ) ;
#304 = ADVANCED_FACE ( 'NONE', ( #94 ), #129, .F. ) ;
#305 = CALENDAR_DATE ( 2020, 22, 12 ) ;
#306 = DIRECTION ( 'NONE',  ( 0.000000000000000000, -0.000000000000000000, 1.000000000000000000 ) ) ;
#307 = DATE_AND_TIME ( #284, #33 ) ;
#308 = CARTESIAN_POINT ( 'NONE',  ( -12.69999999999999751, -12.69999999999999929, 12.69999999999999929 ) ) ;
#309 = CC_DESIGN_PERSON_AND_ORGANIZATION_ASSIGNMENT ( #38, #213, ( #225 ) ) ;
#310 = DATE_TIME_ROLE ( 'classification_date' ) ;
#311 = CARTESIAN_POINT ( 'NONE',  ( 12.69999999999999574, 12.69999999999999574, -12.69999999999999929 ) ) ;
#312 = APPROVAL ( #189, 'UNSPECIFIED' ) ;
#313 = DIRECTION ( 'NONE',  ( -0.7071067811865475727, 0.7071067811865475727, 0.000000000000000000 ) ) ;
#314 = COORDINATED_UNIVERSAL_TIME_OFFSET ( 8, 0, .AHEAD. ) ;
#315 = DIRECTION ( 'NONE',  ( 1.000000000000000000, 0.000000000000000000, 0.000000000000000000 ) ) ;
#316 = CARTESIAN_POINT ( 'NONE',  ( 12.69999999999999574, 12.69999999999999574, -12.69999999999999929 ) ) ;
#317 = EDGE_CURVE ( 'NONE', #205, #52, #195, .T. ) ;
#318 = DIRECTION ( 'NONE',  ( 1.000000000000000000, -2.220446049250312588E-16, 0.000000000000000000 ) ) ;
#319 = EDGE_LOOP ( 'NONE', ( #181, #74, #280, #97 ) ) ;
#320 = CARTESIAN_POINT ( 'NONE',  ( 12.69999999999999929, -12.69999999999999929, 12.69999999999999929 ) ) ;
#321 = AXIS2_PLACEMENT_3D ( 'NONE', #120, #268, #244 ) ;
ENDSEC;
END-ISO-10303-21;
